EXERCISE 2. A-MAJOR ARPEGGIO
Music by Borislav Mitic

To hear how the below tab sounds, take a listen to Borislav playing this exercise.
Choose your playing speed:  SLOW  /  FAST  /  SUPER FAST

If the tab looks messed up due to your screen width, try setting your fonts to "smallest."
If you'd like to view the tab in an editor program check out PowerTab available
for trial from http://powertab.guitarnetwork.org/
Download The PowerTab for Exercise2.

 

 

|-9-5----------------12-9-----------------17-12----------------------|
|-----5------------5-----10-------------10-----14-----------------14-|
|------6----------6--------9-----------9---------14--------------14--|
|-------7-------7-----------11-------11------------14----------14----|
|---------7--4-7--------------12--7-12----------------16--12-16------|
|-----------5-------------------9-----------------------12-----------|


|-21 17--------------------------17 12-----------------------12 9------------------|
|------17---------------------17------14-------------------14----10-------------10-|
|--------18---------------18------------14---------------14--------9-----------9---|
|-----------19---------19------------------14----------14-----------11-------11----|
|--------------19-16 19-----------------------16--12 16---------------127 12------|
|----------------17-----------------------------12----------------------9----------|


|-9-5---------------------5----|
|-----5-----------------5------|
|-------6-------------6--------|
|---------7---------7----------|
|-----------7---4-7------------|
|-------------5----------------|

 

-