EXERCISE 1. C-MAJOR SCALE
Music by Borislav Mitic

To hear how the below tab sounds, take a listen to Borislav playing this exercise.
Choose your playing speed:  SLOW  /  FAST  /  SUPER FAST

If the tab looks messed up due to your screen width try setting your fonts to "smallest."
If you'd like to view the tab in an editor program check out PowerTab available
for trial from http://powertab.guitarnetwork.org/ 
Download The PowerTab for Exercise1.


 

|------------------------------------------------------------------------|
|-----------------------------------------------3-5-6--------------------|
|-----------------------------------2-4-5-2-4-5--------------------------|
|-----------------------2-3-5-2-3-5--------------------------------------|
|-----------2-3-5-2-3-5--------------------------------------------------|
|-----1-3-5--------------------------------------------------------------|

 


|----------3-5-7-8-7-5---------------------------------------------------|
|----3-5-6-------------8-6-5-8-6-5---------------------------------------|
|----------------------------------7-5-4-7-5-4---------------------------|
|----------------------------------------------7-5-3---------------------|
|------------------------------------------------------------------------|
|------------------------------------------------------------------------|

 

 


|-------------------------------------------------------------------------|
|-------------------------------------------------------------------------|
|-------------------------------------------------------------------------|
|--------7-5-3--------------------------------------5-7-9-----------------|
|---------------7-5-3-7-5-3-------------5-7-8-5-7-8-----------------------|
|---------------------------7-5-3-5-7-8-----------------------------------|

 

 

|------------------------------------7-8-10-12-10-8-----------------------|
|-----------------------6-8-10-6-8-10--------------12-10-8----------------|
|-----------5-7-9-5-7-9---------------------------------------------------|
|-----5-7-9---------------------------------------------------------------|
|-------------------------------------------------------------------------|
|-------------------------------------------------------------------------|

 


|-------------------------------------------------------------------------|
|-----12-10-8-------------------------------------------------------------|
|------------10-9-7-10-9-7------------------------------------------------|
|--------------------------10-9-7-10-9-7----------------------------------|
|----------------------------------------10-8-7-10-8-7--------------------|
|------------------------------------------------------10-8-7-------------|

 

 

|--------------------------------------------------------------------------|

|-----------------------------------------------------------------10-12-13-|

|-------------------------------------------------9-10-12-9-10-12----------|

|---------------------------------9-10-12-9-10-12--------------------------|
|-----------------8-10-12-8-10-12------------------------------------------|

|---------8-10-12----------------------------------------------------------|

 

 


|-----------10-12-13-15-13-12-----------------------------------------------|
|---10-12-13-------------------15-13-12-15-13-12----------------------------|
|------------------------------------------------14-12-10-14-12-10----------|
|------------------------------------------------------------------14-12-10-|
|---------------------------------------------------------------------------|
|---------------------------------------------------------------------------|

 

 

|---------------------------------------------------------------------------|
|---------------------------------------------------------------------------|
|---------------------------------------------------------------------------|
|---14-12-10------------------------------------------------------12-14-15--|

|-----------14-12-10-14-12-10-------------------12-14-15-12-14-15-----------|
|-----------------------------13-12-10-12-13-15-----------------------------|

 

 




|----------------------------------------------13-15-17-19-17-15------------|
|----------------------------13-15-17-13-15-17-------------------18-17-15---|
|----------12-14-16-12-14-16------------------------------------------------|
|---12-14-15----------------------------------------------------------------|
|---------------------------------------------------------------------------|
|---------------------------------------------------------------------------|

 

 

|---------------------------------------------------------------------------|
|---18-17-15----------------------------------------------------------------|

|------------17-16-14-17-16-14----------------------------------------------|

|------------------------------17-15-14-17-15-14----------------------------|

|------------------------------------------------17-15-14-17-15-14----------|
|------------------------------------------------------------------17-15-13-|



|---------------------------------------------------------------------------|
|--------------------------------------------------------------13-15-17-----|
|---------------------------------------------12-14-16-12-14-16-------------|
|----------------------------12-14-15-12-14-15------------------------------|
|-----------12-14-15-12-14-15-----------------------------------------------|
|---12-13-15----------------------------------------------------------------|

 


|--------------13-15-17-15-13-12--------------------------------------------|

|-----13-15-17------------------15-13-12-15-13-12---------------------------|
|------------------------------------------------14-12-10-14-12-10----------|

|-----------------------------------------------------------------14-12-10--|

|---------------------------------------------------------------------------|

|---------------------------------------------------------------------------|


|--------------------------------------------------------------------------|
|--------------------------------------------------------------------------|
|--------------------------------------------------------------------------|
|-----14-12-10----------------------------------------------------9-10-12--|
|--------------14-12-10-14-12-10------------------8-10-12-8-10-12----------|
|--------------------------------13-12-10-8-10-12--------------------------|

|-----------------------------------------------10-12-13-12-10-8-----------|

|-----------------------------10-12-13-10-12-13------------------12-10-8---|

|-------------9-10-12-9-10-12----------------------------------------------|

|-----9-10-12--------------------------------------------------------------|

|--------------------------------------------------------------------------|
|--------------------------------------------------------------------------|


|--------------------------------------------------------------------------|
|-------12-10-8------------------------------------------------------------|
|---------------10-9-7-10-9-7----------------------------------------------|
|-----------------------------10-9-7-10-9-7--------------------------------|
|-------------------------------------------10-8-7-10-8-7------------------|
|---------------------------------------------------------10-8-7-----------|



|--------------------------------------------------------------------------|

|-------------------------------------------------6-8-10-------------------|

|-------------------------------------5-7-9-5-7-9--------------------------|

|-------------------------5-7-9-5-7-9--------------------------------------|
|-------------5-7-8-5-7-8--------------------------------------------------|

|-------5-7-8--------------------------------------------------------------|

 


|--------------7-8-10-8-7-5------------------------------------------------|
|------6-8-10--------------8-6-5-8-6-5-------------------------------------|
|--------------------------------------7-5-4-7-5-4-------------------------|
|--------------------------------------------------7-5-3-------------------|
|--------------------------------------------------------------------------|
|--------------------------------------------------------------------------|


|--------------------------------------------------------------------------|
|--------------------------------------------------------------------------|

|--------------------------------------------------------------------------|

|---------------7-5-3-------------------------------------2-3-5------------|

|----------------------7-5-3-7-5-3-------------2-3-5-2-3-5-----------------|

|----------------------------------7-5-3-1-3-5-----------------------------|



|----------------------------------3-5-7-8-7-5-----------------------------|
|----------------------3-5-6-3-5-6-------------8-6-5-8-6-5-----------------|
|----------2-4-5-2-4-5-------------------------------------7-5-4-5---------|
|----2-3-5-----------------------------------------------------------------|
|--------------------------------------------------------------------------|
|--------------------------------------------------------------------------|

 

-